Kurs gry gitar.info.pl

Niniejszy wpis jest swoistym zestawieniem dotychczasowych lekcji. Osobom początkującym zalecam czytanie bez omijania żadnego wpisu 😉

 

Sekcja pierwsza – Podstawy


Podstawy #1 – Budowa gitary

Podstawy #2 – Jaka gitara na początek?

Podstawy #3 – Zapis dźwięków

Podstawy #4 – Strojenie i przestrajanie gitary

Podstawy #5 – Wymiana strun

Podstawy #6 – Podstawowe techniki gry na gitarze

Podstawy #7 – Akordy i bicia

Podstawy #8 – Interwały

Podstawy #9 – Gamy

Podstawy #10 – Ćwiczenia

Podstawy #11 – Informacje z nauki o muzyce

Ćwiczenie czytania nut – puste struny

Ćwiczenie czytania nut

 

 

Sekcja druga –  Tabele, dźwięki


Tabela chwytów – chwyty durowe

Tabela chwytów – chwyty molowe

Gamy durowe

Gamy molowe

Gamy – podsumowanie

Triada harmoniczna

 

Sekcja trzecia –  Techniki gry


Power chords

Tremolo picking

Tapping

Flażolety #1 – flażolety naturalne

Flażolety #2 – flażolety sztuczne

 

Flażolety #2 – flażolety sztuczne

Flażolety sztuczne (ang. artificial harmonics) wydobywa się na podobnej zasadzie, co flażolety naturalne. Jak zapewne pamiętacie z poprzedniej lekcji flażolety naturalne grane są nad belką oznaczającą próg, a dźwięk jest równy odległości od tego progu do siodełka (alikwota).

Flażolety sztuczne można wydobyć na dwa podstawowe sposoby – grając palcami oraz kostką.

W niektórych utworach klasycznych używane są flażolety sztuczne. Jak wiadomo, klasyka oraz fingerstyle grane są palcami, więc wszelkie techniki także trzeba wykonywać bez kostki. Flażolet sztuczny wygląda w takim przypadku tak samo, jak naturalny – jest to odległość wielkiej seksty, wielkiej tercji, kwarty, kwinty lub oktawy od progu „podstawowego”. Najlepiej tłumaczy to schemat flażoletu sztucznego wykonywanego od progu pierwszego:

Jak widzimy belki, nad którymi znajdują się flażolety po prostu przesunęły się o jedną w górę. Struna dociśnięta na pierwszym progu jest skrócona, więc odległość od tego „sztucznego siodełka” musimy zwiększyć.

Jeżeli wykonujemy flażolet palcami należy docisnąć odpowiedni próg (przykładowo – I próg struny e1), a palec wskazujący prawej ręki przyłożyć dwanaście progów dalej (XIII próg struny e1), nad belkę. Dźwięk wydobywamy którymś z pozostałych palców (najwygodniej kciukiem). Jest to dość trudna technika, zwłaszcza, jeżeli musimy wydobyć flażolet inny niż oktawowy. Przykład użycia flażoletów sztucznych w technice fingerstyle widzimy w utworze Medieval Song Frédéric Mesnier’a:

Jeżeli zaś gramy na gitarze elektrycznej z przesterowaniem możemy wydobyć flażolet naturalny w inny sposób. Weźmy jako przykład ten sam próg i tą samą strunę. Możemy wydobyć flażolet przyciskając lewą ręką pierwszy próg, a drugą ręką kostkując w miejscach alikwot. Wymaga to innego sposobu kostkowania – łapiemy piórko tak, aby wystawało go jak najmniej po to, aby po wydobyciu dźwięku móc natychmiast lekko dotknąć struny. Są to tak zwane pinch harmonics (nie mają z góry określonej polskiej nazwy, ale można je nazywać flażoletami sztuczno-oktawowymi) i trudno wykonać je w tych pozycjach, jednak sytuacja zmienia się, jeżeli w przesterowanej gitarze przełączymy się na przetwornik z pozycji bridge. Wtedy możemy wykonać flażolet sztuczny w okolicach bliżej mostka – w jakim miejscu – to zależy od ilości progów, menzury gitary, itd, itp. parę centymetrów od końca gryfu w stronę mostka można wykonać flażolet pełnej oktawy, a im bliżej mostka, tym wyższy flażolet – przy samej przystawce podmostowej mogą to być nawet dwie oktawy różnicy. Te miejsca w gitarze należy znaleźć samemu, ponieważ są dość indywidualne dla każdej gitary. Najłatwiej wydobyć je z mocno przesterowanej gitary z włączonym przetwornikiem spod mostka (najlepiej działają w tym wypadku humbuckery, przetworniki single-coil są nieco mniej podatne na flażolety 😉 ).

Flażolet sztuczny zapisuje się na wiele sposobów – oto kilka z nich:

e|--<13>-------------|
H|-------AH1---------|
G|-----------1ah-----|
D|---------------1*--|
A|-------------------|
E|-------------------|

 

Flażolety w technice klasycznej są dużym wyzwaniem, jeżeli łączy się je z partią rytmiczną lub trzeba zagrać kilka z nich pod rząd w różnych miejscach gryfu.

Flażolety sztuczno-oktawowe najłatwiej wydobyć z gitary z przetwornikiem typu humbucker w pozycji bridge oraz z mocnym przesterem, typu distortion.

Flażolety #1 – flażolety naturalne

Flażolety naturalne (ang. natural harmonics) to sposób wydobywania dźwięku polegający na przyłożeniu w odpowiednim miejscu na gryfie palca nad belką oznaczającą próg i zagranie struny prawą ręką. W lekcji Podstawy #4 – Strojenie gitary omówiliśmy już to pojęcie, niniejszy materiał ma na celu dokładne przybliżenie tej techniki.

Flażolety naturalne możemy wydobyć jedynie w określonych miejscach gryfu – poniższe zdjęcie przedstawia położenie flażoletów na gryfie:

Zasada wydobywania flażoletu jest zawsze taka sama – znajdują się one nad III, IV, V, VII, XII (oraz XXIV, jeżeli gitara takowy posiada) progiem. Ich nazwy pochodzą od nazw interwałów i są to kolejno – flażolet wielkiej seksty, wielkiej tercji, kwarty, kwinty i oktawy – przypomnienie w lekcji Podstawy #8 – Interwały. Odległość dwudziestu czterech półtonów (XXIV próg) to dwie oktawy.

Jak wiemy dźwięk wydobywa się poprzez skrócenie struny dzięki dociśnięciu jej na określonym progu. Flażolet to tak jakby odwrotność tego schematu – jest to dźwięk o wysokości takiej, jak odległość od progu do siodełka. Odległość ta to tak zwana alikwota. Najlepiej zobrazuje to poniższe zdjęcie:

Flażolety te często są wykorzystywane w wielu rodzajach muzyki – od klasycznej aż do metalu. Na gitarze przesterowanej brzmią bardzo ostro i „brudno”. Jest to wspaniałe urozmaicenie riffów, solówek czy klasycznych zagrywek. Należy ćwiczyć je wytrwale tak, aby brzmiały czysto. Zapisywane są one na tabulaturze w sposób następujący:


e|--<12>--<7>----------<5>---------<5>--|
H|--<12>------<7>--------------<5>------|
G|--<12>----------<7>------<5>----------|
D|--<12>--------------------------------|
A|--<12>--------------------------------|
E|--<12>--------------------------------|

Powyższe ćwiczenie to prosta zagrywka, którą wykonujemy następująco – przykładamy palec wskazujący nad belkę oznaczającą XII próg, następnie techniką arpeggio gramy wszystkie dźwięki dbając o to, żeby tuż po zagraniu każdego oderwać palec znad belki – w przeciwnym razie flażolet będzie stłumiony i nie będzie mógł wybrzmieć. Następnie kładziemy palec nad VII próg struny e1 i gramy pierwszy dźwięk odrywając palec tuż po wydobyciu go. Kolejno – przystawiamy palec nad VII próg struny H2 i odrywamy po wydobyciu dźwięku. Analogicznie postępujemy z następnymi dźwiękami dbając o to, żeby każdy wybrzmiewał tak długo, jak to możliwe – należy unikać przypadkowego dotknięcia strun innych niż ta, którą mamy zamiar grać.

 

Najłatwiej jest wydobyć flażolet znad XII progu. Trochę problemów może być na progach III i IV – zwłaszcza na strunie e1 w słabych jakościowo gitarach.

Dźwięk flażoletu oktawy to dźwięk struny dociśniętej na XII progu – jest to środek gryfu i nie powinna być słyszalna różnica w wysokości tych dwóch dźwięków. Jeżeli jest drastyczna zmiana znaczy to, że gitara jest źle ustawiona.

Cicha noc – wersja akustyczna


e||-----------------------------|-----------------------|
H||-----------------------------|--3--3--0--0-1--1------|
G||o---2--4--2------2--4--2-----|--0-----2----2-----0---|
D||o------------4------------4--|--0-----2----2-----2---|
A||----0--2--0------0--2--0-----|--2-----0----0-----3---|
E||-------------2------------2--|-----------------------|

--0---0--3--2-0-------------0---|--0---0--3--2-0-------------0---|
----------------------------0---|----------------------------0---|
--2---2--5--4-2--0--2-0-----0---|--2---2--5--4-2--0--2-0-----0---|
--2----------------------2--2---|--2----------------------2--2---|
--0------3----0----------2--2---|--0------3----0----------2--2---|
------------0------------0--0---|------------0------------0--0---|

--------1----------------|------------------------||
--3--3--3--3--0--1---5---|--1---------------------||
--2-----2--------0---5---|-----0-----0-----------o||
--0-----0--------2---3---|--------2-----3--0-----o||
-----------------3---3---|--------------------3---||
-------------------------|--3-----0--2------------||

Krótkie objaśnienie – gramy całość dwa razy.

Powrót do wyboru kolędy

Cicha noc – wersja klasyczna


e||-----------------------------|----------------------|
H||-----------------------------|--3--3--0---1--1------|
G||o---2--4--2------2--4--2-----|------------------0---|
D||o------------4------------4--|----------------------|
A||----0------------0-----------|--2--2------3--3--0---|
E||-------------2------------2--|--------3-------------|

--------------------------------|--------------------------------|
--------------------------------|--------------------------------|
--2---2--5--4-2--0--2-0---------|--2---2--5--4-2--0--2-0---------|
---------0---------------2--2---|---------0---------------2--2---|
--0-----------------------------|--0-----------------------------|
----------------------3--0------|----------------------3--0------|

--------1----------------|------------------------||
--3--3-----3--0--1-s-5---|--1---------------------||
--0----------------------|-----0-----0-----------o||
-------------------------|--------2-----3--0-----o||
--2--------2-----3-s-7---|--------------------3---||
--------3-----2----------|--3-----0--3------------||

Krótkie objaśnienie – gramy całość dwa razy.

Powrót do wyboru kolędy

Cicha noc – wersja podstawowa


e||-----------------------------|----------------------|
H||-----------------------------|--3--3--0---1--1------|
G||o---2--4--2------2--4--2-----|------------------0---|
D||o------------4------------4--|----------------------|
A||-----------------------------|----------------------|
E||-----------------------------|----------------------|

--------------------------------|--------------------------------|
--------------------------------|--------------------------------|
--2---2--5--4-2--0--2-0---------|--2---2--5--4-2--0--2-0---------|
-------------------------2--2---|-------------------------2--2---|
--------------------------------|--------------------------------|
--------------------------------|--------------------------------|

--------1------------0---|------------------------||
--3--3-----3--0--1-------|--1---------------------||
-------------------------|-----0-----0-----------o||
-------------------------|--------2-----3--0-----o||
-------------------------|--------------------3---||
-------------------------|------------------------||

Krótkie objaśnienie – gramy całość dwa razy.

Powrót do wyboru kolędy

Dzisiaj w Betlejem – wersja akustyczna


e||-----------------|--0--0-----0--1--|--3--5--3---1---0-------||
H||---1--1-----1h3--|--3-----3-----1--|--5--7--5---1---1---3---||
G||o--0-----0-------|--2--------------|--5--7--5---2---0---0--o||
D||o--2-------------|--0--------------|--5--7--5---3---2---2--o||
A||---3-------------|-----3--2--3-----|------------3---3---3---||
E||----
-------------|-----------------|------------1-----------||


||---3--3--1--0---------------------||--3--5--3--1--0--1--3--5--3--1--0--1--|
||---3-----------3--1---1-----1h3---||--3--5--3--1--0--1--3--5--3--1--0--1--|
||o--0--------------0---------0----o||--------------------------------------|
||o-----------------2--------------o||--------------------------------------|
||------------------3------3--------||--------------------------------------|
||---3-----1--0--2------------------||-----------1--0--1-----------1--0--1--|


--3--3--5---3---1---0----------|
--3--3--5---3---1---0---3---1--|
------------------------0---0--|
------------------------0---2--|
------------------------2---3--|
--3--3--5---3---1---0----------|

Krótkie objaśnienie – gramy dwa razy takty 1-3, następnie dwa razy takt 4, kolejne dwa takty gramy normalnie, bez powtórzeń. Każdy z akordów gramy techniką arpeggio palcami.

Powrót do wyboru kolędy

Dzisiaj w Betlejem – wersja klasyczna


e||------------------|--0--0-----0--1--|--3--5--3---1---0------||
H||---1--1-----1--3--|--------3--------|--------------------3--||
G||o--------0--------|-----------------|----------------------o||
D||o-----------------|--0--------------|----------------------o||
A||---3--------------|-----------------|--2---------0----------||
E||----
--------------|-----------------|--------------------3--||


||---3--3--1--0---------------------||--3--5--3--1--0--1--3--5--3--1--0--1--|
||---------------3--1---1-----1--3--||--------------------------------------|
||o------------------------0-------o||--2--4--2--0--------2--4--2--0--------|
||o--2-----------------------------o||--------------------------------------|
||---------------2--3---------------||--------------------------------------|
||----------------------------------||--------------------------------------|


--3--3--5---3---1---0----------|
--------0---------------3---1--|
--2----------------------------|
------------2---0--------------|
--------0---------------2---3--|
--3----------------------------|

Krótkie objaśnienie – gramy dwa razy takty 1-3, następnie dwa razy takt 4, kolejne dwa takty gramy normalnie, bez powtórzeń.

Powrót do wyboru kolędy

Dzisiaj w Betlejem – wersja podstawowa


e||------------------|--0--0-----0--1--|--3--5--3---1---0------||
H||---1--1-----1--3--|--------3--------|--------------------3--||
G||o--------0--------|-----------------|----------------------o||
D||o-----------------|-----------------|----------------------o||
A||------------------|-----------------|-----------------------||
E||----
--------------|-----------------|-----------------------||


||---3--3--1--0---------------------||--3--5--3--1--0--1--3--5--3--1--0--1--|
||---------------3--1---1-----1--3--||--------------------------------------|
||o------------------------0-------o||--------------------------------------|
||o--------------------------------o||--------------------------------------|
||----------------------------------||--------------------------------------|
||----------------------------------||--------------------------------------|


--3--3--5---3---1---0----------|
------------------------3---1--|
-------------------------------|
-------------------------------|
-------------------------------|
-------------------------------|

Krótkie objaśnienie – gramy dwa razy takty 1-3, następnie dwa razy takt 4, kolejne dwa takty gramy normalnie, bez powtórzeń.

Powrót do wyboru kolędy

Wśród nocnej ciszy – wersja akustyczna


e||-------0-------------|--2--2--3--0--2---||
H||----3-----2--3-------|--3-----3---------||
G||o---0--------2---2---|--2-----0--------o||
D||o---0-----0--2---2---|--0--2-----2--0--o||
A||----2--------2---0---|------------------||
E||---------------------|--------3---------||

------2-------2----3-p-0--------|------2-------2----3-p-0--------|
--3---3---3---3----3------2-----|--3---3---3---3----3------2-----|
--2-------2--------0------2--2--|--2-------2--------0------2--2--|
--------------------------2-----|--------------------------2-----|
----0---0---0---0---------0-----|----0---0---0---0---------0-----|
-------------------3---------0--|-------------------3---------0--|

----------0---0---2-------|
--3---3---2---2---3---3---|
--2---2---2---2---2--2----|
--0---0-----------0-0-----|
----0---0-----------------|
------------0---0---------|

------2-------2----3-p-0--------|------2-------2----3-p-0--------|
--3---3---3---3----3------2-----|--3---3---3---3----3------2-----|
--2-------2--------0------2--2--|--2-------2--------0------2--2--|
--------------------------2-----|--------------------------2-----|
----0---0---0---0---------0-----|----0---0---0---0---------0-----|
-------------------3---------0--|-------------------3---------0--|

----------0---0---2--------------|--------------5--<12>--<5>------|
--3---3---2---2---3---3-<7>------|--2--2--3-----2--<12>--<5>------|
--2---2---2---2---2--2-----<7>---|--2-----0-----2---0----<5>------|
--0---0-----------0-0------------|--2-----0-----2---------0-------|
----0---0------------------------|--0-----2-----0-----------------|
------------0---0----------------|-----------3----------------0---|

Krótkie objaśnienie – gramy dwa razy takty 1-2, następnie kolejne takty bez powtarzania ich. Liczby w klamrach w dwóch ostatnich taktach to flażolety. W ostatnim takcie pozwolić flażoletom oraz pustej strunie E wybrzmiewać tak długo, dopóki dźwięk nie zaniknie. Każdy z akordów gramy techniką arpeggio palcami.

Powrót do wyboru kolędy